Приветствую Вас Гость | RSS


Главная | Sumerian Cry - Форум | Регистрация | Вход
[ Новые сообщения · Участники · Правила форума · Поиск · RSS ]
  • Страница 1 из 1
  • 1
Форум » Табулатуры Tiamat » Табулатуры » Sumerian Cry (Табы)
Sumerian Cry
wildhoneyДата: Вторник, 17.06.2008, 13:44 | Сообщение # 1
Admin
Группа: Администраторы
Сообщений: 36
Репутация: 2
Статус: Offline
Apotheosis Of Morbidity
by Tiamat
z albumu Sumerian Cry

Rozpisał Philip Holstner

/ - slide up
\ - slide down
^ - put down

Intro
I II III

e =

|----------------------|-----------------------|-----------------------|

h =

|----------------------|-----------------------|-----------------------|

g =

|----------------------|-----------------------|-----------------------|

d =

|--3--3--3--3----------|--3--3--3--3-----------|--3--3--3--3-----------|

a =

|--3--3--------2/3--1--|--3--3--------2/3--1---|--3--3--------2/3--1---|

e =

|--1--1----------------|--1--1-----------------|--1--1-----------------|

IV

e |----------------------|| x6(I,II,III,IV)

h |----------------------||

g |----------------------||

d |----------3/5--3------||

a |--2/3--2--------------||

e |----------------------||

Riff 1

e |----------------------|------------------------|| x6

h |----------------------|------------------------||

g |----------------------|------------------------||

d |--2---4/5---4--8---7--|--2---3/4---3--6--5--2--||

a |--2---4/5---4--8---7--|--2---3/4---3--6--5--2--||

e |--0---2/3---2--6---5--|--0---1/2---1--4--3--0--||

Riff 2

e |------------------------------------------------------------------|| =

x2

h |------------------------------------------------------------------||

g |------------------------------------------------------------------||

d |--2-----------------7-7-7-7-5-5-5-5-2-------3-3-3-3---5--4--------||

a |--2-----------------7-7-7-7-5-5-5-5-2-------3-3-3-3---3--2--5--4--||

e |--0-0-0-0-0-0-0-0-0-5-5-5-5-3-3-3-3-0-0-0-0-1-1-1-1---------3--2--||

^ ^ ^ ^ ^ ^ ^ ^ ^ ^ ^

Riff 3

e |------------------------|-------------------------|| x2

h |------------------------|-------------------------||

g |------------------------|-------------------------||

d |--2--6\3--5-------------|--2--6\3--5--8-8-8-8--4--||

a |--2--6\3--5-------------|--2--6\3--5--8-8-8-8--4--||

e |--0--4\1--3-3-3-3-3-3-3-|--0--4\1--3--6-6-6-6--2--||

^ ^ ^ ^ ^ ^ ^

Riff 1 x4

Riff 2 x2

Riff 3 x2

Riff 4

e =

|----------------------------------|-----------------------------------||=

x4

h =

|----------------------------------|-----------------------------------||=

g =

|-------------------5--------------|-----------------------------------||=

d =

|-6--5--3-----------3-3-3-3-3-3-3--|--6--5--3-----------5--------------||=

a =

|----------5--6--5-----------------|-----------5--6--5--3-3-3-3-3-3-3--||=

e =

|----------------------------------|-----------------------------------||=

^ ^ ^ ^ ^ ^ ^ ^ ^ ^ ^ ^

Solo (..umm..ghhp....uphh.....mmmnnnn..mmnnn......)

Gitara 2 podczas

e =

|-----------------------------------|-----------------------------------|=

x4

h =

|-----------------------------------|-----------------------------------|=

g =

|-----------------------------------|-----------------------------------|=

d =

|-5-5-5-5--2-2-2-2--5-5-5-5-5-5-5-5-|-2-2-2-2--3-3-3-3--5-5-5-5-5-5-5-5-|=

a =

|-3-3-3-3--0-0-0-0--5-5-5-5-5-5-5-5-|-0-0-0-0--1-1-1-1--5-5-5-5-5-5-5-5-|=

e =

|-------------------3-3-3-3-3-3-3-3-|-------------------3-3-3-3-3-3-3-3-|=

...zakonczenie podkladu dla gitary 2

e |----------------||

h |----------------||

g |----------------||

d |---4-3----------|| /---\
a |-0-----4-3-1----|| | 6 |
e |-------------5--|| | 6 |
^ | 6 |
Riff 1 x4 | T |
Riff 2 x2 | I |
Riff 3 x4 | A |
| M |
koncowka /-----/ A \-----\
| 666 SATAN 666 |
e |----------------|| \-----\ 6 /-----/
h |----------------|| | 6 |
g |----------------|| | 6 |
d |--2-------------|| \---/
a |--2-------------||
e |--0-------------||

*************************************************************************=
*****
* Philip Holstner do it for you, my adress =
*
* - The End Complete - =
*
* 1997.04.1. Jesli cos ci sie nie podoba zmien, moze bedzie blizsze =
orginalu *
*************************************************************************=
*****

Altar Flame
Tiamat z albumu
Sumerian Cry
Rozpisał Philipe Holstner /Church Of Tiamat/

RIFF ONE

E |---------------------------------------||

B |---------------------------------------||

G |---------------------------------------||

D |------5/6-----7\6-----5/6--------------||

A |------3/4-----5\4-----3/4--------------||

E |--0-0-----0-0-----0-0-----4-3-2-1-(0)--|| x7

RIFF TWO

E |---------------------------| -------------------------||

B |---------------------------| -------------------------||

G |---------------------------| -------------------------||

D |--2------------------------| ----------------------3--||

A |--2------------------------| --5-----------------4-1--||

E |--0-0-0-0-0-0-0-0-4-3-1-0--| x3 --3-3-3-3-3-3-3-3-3-2----||

RIFF ONE x4

RIFF TWO x4

RIFF THREE

E |-------------------------------||

B |-------------------------------||

G |-------------------------------||

D |------4------2------4-2/3\2----||

A |------2------0------2-------5--||

E |--0-0----0-0----0-0------------|| x12 (solo begin into 4)

RIFF ONE x4

RIFF TWO x4

RIFF ONE x4

RIFF TWO x4

RIFF FOUR

E |---------------------------||

B |---------------------------||

G |---------------------------||

D |--4---4-2---2-----5-2------||

A |--2-----0-----5-----2-4/5--||

E |----0-----0---3-3---0-2/3--|| x8

RIFF FIVE

E |-------------------||

B |-------------------||

G |-------------------||

D |--4--2-------------||

A |--2--0--5--2-------||

E |--------3--0--2/3--|| x4

RIFF THREE

The Sign Of The Pentagram
Tiamat z albumu
Sumerian Cry
Rozpisał Philipe Holstner /Church Of Tiamat/

RIFF ONE

E |------------------------------------||

B |------------------------------------||

G |------------------------------------||

D |-2---------2---------2---------3--5-||

A |-2---------2---------2---------3--5-||

E |-0-0-0-0-0-0-0-0-0-0-0-0-0-0-0-1--3-|| x4

RIFF TWO

E |---------------------||
B |---------------------||
G |---------------------||
D |-6--4--2--0--2--4--1-||
A |-6--4--2--0--2--4--1-||
E |-4--2--0-----0--2----||

Where The Serpents Ever Dwell
Tiamat z albumu
Sumerian Cry
Rozpisał Philipe Holstner /Church Of Tiamat/

RIFF ONE

E |-------------------------------------------||

B |-------------------------------------------||

G |--------------------------------------9-8--||

D |--7P8H9-7P8H9-7P8H9-------------------7-6--||

A |--------------------6P7H8-6P7H8-6P7H8------||

E |-------------------------------------------|| x6

RIFF TWO

E |---------------------------------------||

B |---------------------------------------||

G |---------------------------------------||

D |---------------------------------------||

A |------------------------------------1--||

E |--0-0-0-0-1-0-0-0-0-1-0-0-0-0-1-3-2----|| x8

RIFF THREE

E |---------------------------||

B |---------------------------||

G |---------------------------||

D |--7------------7--------4--||

A |--7---4--5--4--7--4--5--2--||

E |--5---2--3--2--5--2--3-----|| x4

RIFF TWO

RIFF THREE

RIFF FOUR

E |-------------------------------------------------------------------||

B |--16-16-15-15-14-14-13-13-12---------------------------------------||

G |-------------------------------------------------------------------||

D |-------------------------------------------------------------------||

A |-------------------------------------------------------------------||

E |-----------------------------3-4-6--0-0-0-0-0-0-0-0-1H3P4-0-0-0-0--||

BACKGROUND FOR SOLO

E |-------------------------------||

B |-------------------------------||

G |-------------------------------||

D |-------------------------------||

A |--0-0-0-0-0-0-2-3-5-0-0-0-0-0--||

E |-------------------------------||

SOLO

E |-------------------------------------------------------------------------------------|

B |--------------------12-------------------15----------------------6-------------------|

G |--7-8-9-10-11-12-13----13--9-10-11-13-16----16-15-14-12-9--5-6-7---7-5--------6------|

D |------------------------------------------------------------------------5-6-7---7-5--|

A |-------------------------------------------------------------------------------------|

E |-------------------------------------------------------------------------------------|

E |--10-11-10-11-10-11-10-11-10-9-7--------------------------------------|

B |---------------------------------10-9-7------------6------------------|

G |----------------------------------------10-9-5-6-7---7-5-------6------|

D |---------------------------------------------------------5-6-7---7-5--|

A |----------------------------------------------------------------------|

E |----------------------------------------------------------------------|

E |-8-7-----------------||

B |-----8-7-------------||

G |---------8-7---------||

D |-------------8-7--5--||

A |---------------------||

E |---------------------||

RIFF ONE

RIFF TWO

RIFF FIVE

E |-------------------------------------------------|

B |-------------------------------------------------|

G |-------------------------------------------------|

D |-------------------------------------------------|

A |--------------------------------3-3-3-3-2-2-2-2--|

E |--1-1-1-1-1-1-1-3-3-3-3-4-4-4-4------------------| x2

E |-------------------------------------------------|

B |-------------------------------------------------|

G |-------------------------------------------------|

D |-------------------------------------------------|

A |--------------------------------3-3-3-3-2-2-2-2--|

E |--2-2-2-2-2-2-2-3-3-3-3-5-5-5-5------------------| x2

RIFF SIX

E |-------------------------------------------||
B |-------------------------------------------||
G |-------------------------------------------||
D |----------4---------4---------4---------4--||
A |--3-3-3-3-4-3-3-3-3-4-3-3-3-3-4-3-3-3-3-4--||
E |----------2---------2---------2---------2--||

Evilized
Tiamat z albumu
Sumerian Cry
Rozpisał Philipe Holstner /Church Of Tiamat/

RIFF ONE

E |-----------------------------------------------------------||

B |-----------------------------------------------------------||

G |-----------------------------------------------------------||

D |-----------------------------------------------------------||

A |-----------------------------------------------------------||

E |--0-0-0-0-2-2-2-2-5-5-5-5-3-3-3-3-6-6-6-6-3-3-3-3-5-5-5-5--|| X6

RIFF TWO

E |-----------------------------------------------------------------------------------||

B |-----------------------------------------------------------------------------------||

G |-----------------------------------------------------------------------------------||

D |----------------------------------3-3-3-3------------------------------------------||

A |----------2-2-2-2-3-3-3-3-5-5-5-5-----------------3-3-3-3-2-2-2-2------------------||

E |--0-0-0-0---------------------------------0-0-0-0-----------------3-3-3-3-2-2-2-2--|| x4

RIFF THREE

E |-----------------------------------------------------------------||

B |-----------------------------------------------------------------||

G |-----------------------------------------------------------------||

D |--------------------------------------------------------5-5-5-5--||

A |--3-3-3-3-6-6-6-6-5-5-5-5-4-4-4-3-3-3-3-6-6-6-6-5-5-5-5----------||

E |-----------------------------------------------------------------|| x4

RIFF FOUR

* GUITAR ONE * GUITAR TWO

E |-----------------------------|| |------------------------||

B |-----------------------------|| |------------------------||

G |-----------------------------|| |---------9--------------||

D |--5--7--8--7~----5--7--8--4--|| |--7-9-10---10-7-9-10----||

A |--5--7--8--5~-8--5--7--8--4--|| |---------------------7--||

E |--3--5--6-----6--3--5--6--2--|| x8 |------------------------|| AT 4 x 4

RIFF ONE

RIFF TWO

RIFF THREE

RIFF FOUR

RIFF FIVE

E |-------------------------------------------------------||

B |-------------------------------------------------------||

G |-------------------------------------------------------||

D |-------------------------------------------------------||

A |----------5-5-5-5-6-6-6-5-6-5-------3-4-3-------2-1----||

E |--0-0-0-0---------------------0-0-0-------0-0-0-----2--|| x8

RIFF ONE
RIFF TWO
RIFF THREE
RIFF FOUR
RIFF ONE (HALF)

 
Форум » Табулатуры Tiamat » Табулатуры » Sumerian Cry (Табы)
  • Страница 1 из 1
  • 1
Поиск:


Copyright MyCorp © 2018   Используются технологии uCoz